ISO-10303-21;
HEADER;
/* Generated by software containing ST-Developer
 * from STEP Tools, Inc. (www.steptools.com) 
 */
/* OPTION: using custom schema-name function */

FILE_DESCRIPTION(
/* description */ (''),
/* implementation_level */ '2;1');

FILE_NAME(
/* name */ 'RC100W130S100L3340.stp',
/* time_stamp */ '2026-03-02T10:41:32+08:00',
/* author */ (''),
/* organization */ (''),
/* preprocessor_version */ 'ST-DEVELOPER v18.102',
/* originating_system */ 'SIEMENS PLM Software NX2206.1700',
/* authorisation */ '');

FILE_SCHEMA (('AP203_CONFIGURATION_CONTROLLED_3D_DESIGN_OF_MECHANICAL_PARTS_AND_ASSEMBLIES_MIM_LF { 1 0 10303 403 2 1 2}'));
ENDSEC;

DATA;
#10=PROPERTY_DEFINITION_REPRESENTATION(#14,#12);
#11=PROPERTY_DEFINITION_REPRESENTATION(#15,#13);
#12=REPRESENTATION('',(#16),#477);
#13=REPRESENTATION('',(#17),#477);
#14=PROPERTY_DEFINITION('pmi validation property','',#73);
#15=PROPERTY_DEFINITION('pmi validation property','',#73);
#16=VALUE_REPRESENTATION_ITEM('number of annotations',COUNT_MEASURE(0.));
#17=VALUE_REPRESENTATION_ITEM('number of views',COUNT_MEASURE(0.));
#18=SHAPE_REPRESENTATION_RELATIONSHIP('None',
'relationship between RC100W130S100L3340_objects-None and RC100W130S10
0L3340_objects-None',#84,#19);
#19=ADVANCED_BREP_SHAPE_REPRESENTATION(
'RC100W130S100L3340_objects-None',(#85),#477);
#20=APPLIED_APPROVAL_ASSIGNMENT(#32,(#74));
#21=APPLIED_APPROVAL_ASSIGNMENT(#33,(#76));
#22=APPLIED_APPROVAL_ASSIGNMENT(#34,(#46));
#23=APPROVAL_PERSON_ORGANIZATION(#38,#32,#26);
#24=APPROVAL_PERSON_ORGANIZATION(#39,#33,#27);
#25=APPROVAL_PERSON_ORGANIZATION(#40,#34,#28);
#26=APPROVAL_ROLE('approver');
#27=APPROVAL_ROLE('approver');
#28=APPROVAL_ROLE('approver');
#29=APPROVAL_DATE_TIME(#54,#32);
#30=APPROVAL_DATE_TIME(#55,#33);
#31=APPROVAL_DATE_TIME(#56,#34);
#32=APPROVAL(#35,' ');
#33=APPROVAL(#36,' ');
#34=APPROVAL(#37,' ');
#35=APPROVAL_STATUS('not_yet_approved');
#36=APPROVAL_STATUS('not_yet_approved');
#37=APPROVAL_STATUS('not_yet_approved');
#38=PERSON_AND_ORGANIZATION(#44,#41);
#39=PERSON_AND_ORGANIZATION(#44,#42);
#40=PERSON_AND_ORGANIZATION(#44,#43);
#41=ORGANIZATION(' ',' ',' ');
#42=ORGANIZATION(' ',' ',' ');
#43=ORGANIZATION(' ',' ',' ');
#44=PERSON(' ',' ',' ',(' '),$,$);
#45=APPLIED_SECURITY_CLASSIFICATION_ASSIGNMENT(#46,(#76));
#46=SECURITY_CLASSIFICATION(' ',' ',#47);
#47=SECURITY_CLASSIFICATION_LEVEL('confidential');
#48=APPLIED_DATE_AND_TIME_ASSIGNMENT(#52,#50,(#74));
#49=APPLIED_DATE_AND_TIME_ASSIGNMENT(#53,#51,(#46));
#50=DATE_TIME_ROLE('creation_date');
#51=DATE_TIME_ROLE('classification_date');
#52=DATE_AND_TIME(#67,#57);
#53=DATE_AND_TIME(#68,#58);
#54=DATE_AND_TIME(#69,#59);
#55=DATE_AND_TIME(#70,#60);
#56=DATE_AND_TIME(#71,#61);
#57=LOCAL_TIME(0,0,0.,#62);
#58=LOCAL_TIME(0,0,0.,#63);
#59=LOCAL_TIME(0,0,0.,#64);
#60=LOCAL_TIME(0,0,0.,#65);
#61=LOCAL_TIME(0,0,0.,#66);
#62=COORDINATED_UNIVERSAL_TIME_OFFSET(0,0,.BEHIND.);
#63=COORDINATED_UNIVERSAL_TIME_OFFSET(0,0,.BEHIND.);
#64=COORDINATED_UNIVERSAL_TIME_OFFSET(0,0,.BEHIND.);
#65=COORDINATED_UNIVERSAL_TIME_OFFSET(0,0,.BEHIND.);
#66=COORDINATED_UNIVERSAL_TIME_OFFSET(0,0,.BEHIND.);
#67=CALENDAR_DATE(0,1,1);
#68=CALENDAR_DATE(0,1,1);
#69=CALENDAR_DATE(0,1,1);
#70=CALENDAR_DATE(0,1,1);
#71=CALENDAR_DATE(0,1,1);
#72=SHAPE_DEFINITION_REPRESENTATION(#73,#84);
#73=PRODUCT_DEFINITION_SHAPE('','',#74);
#74=PRODUCT_DEFINITION(' ','',#76,#75);
#75=PRODUCT_DEFINITION_CONTEXT('part definition',#83,'design');
#76=PRODUCT_DEFINITION_FORMATION_WITH_SPECIFIED_SOURCE(' ',' ',#78,
 .NOT_KNOWN.);
#77=PRODUCT_RELATED_PRODUCT_CATEGORY('detail','',(#78));
#78=PRODUCT('RC100W130S100L3340_objects','RC100W130S100L3340_objects',
' ',(#81));
#79=PRODUCT_CATEGORY('part',' ');
#80=PRODUCT_CATEGORY(' ','');
#81=PRODUCT_CONTEXT(' ',#83,'mechanical');
#82=APPLICATION_PROTOCOL_DEFINITION('international standard',
'config_control_design',2010,#83);
#83=APPLICATION_CONTEXT(
'configuration controlled 3D designs of mechanical parts and assemblie
s');
#84=SHAPE_REPRESENTATION('RC100W130S100L3340_objects-None',(#283),#477);
#85=MANIFOLD_SOLID_BREP('UMWICKELN1',#86);
#86=CLOSED_SHELL('',(#131,#132,#133,#134,#135,#136,#137,#138,#139,#140,
#141,#142,#143,#144,#145,#146));
#87=TOROIDAL_SURFACE('',#308,1.05852713786508,0.452457631183133);
#88=TOROIDAL_SURFACE('',#309,0.745764680470377,0.136636364646428);
#89=CONICAL_SURFACE('',#305,0.45,29.9999999999997);
#90=(
BOUNDED_SURFACE()
B_SPLINE_SURFACE(3,3,((#439,#440,#441,#442,#443,#444,#445),(#446,#447,#448,
#449,#450,#451,#452),(#453,#454,#455,#456,#457,#458,#459),(#460,#461,#462,
#463,#464,#465,#466)),.UNSPECIFIED.,.F.,.T.,.F.)
B_SPLINE_SURFACE_WITH_KNOTS((4,4),(1,3,3,3,1),(0.,1.),(-0.5,0.,0.5,1.,1.5),
 .UNSPECIFIED.)
GEOMETRIC_REPRESENTATION_ITEM()
RATIONAL_B_SPLINE_SURFACE(((1.,0.333333333333333,0.333333333333333,1.,0.333333333333333,
0.333333333333333,1.),(0.927597640380566,0.309199213460189,0.309199213460189,
0.927597640380566,0.309199213460189,0.309199213460189,0.927597640380566),
(0.927597640380566,0.309199213460189,0.309199213460189,0.927597640380566,
0.309199213460189,0.309199213460189,0.927597640380566),(1.,0.333333333333333,
0.333333333333333,1.,0.333333333333333,0.333333333333333,1.)))
REPRESENTATION_ITEM('')
SURFACE()
);
#91=FACE_BOUND('',#167,.T.);
#92=FACE_BOUND('',#168,.T.);
#93=FACE_BOUND('',#169,.T.);
#94=FACE_BOUND('',#170,.T.);
#95=FACE_BOUND('',#171,.T.);
#96=FACE_BOUND('',#172,.T.);
#97=FACE_BOUND('',#173,.T.);
#98=FACE_BOUND('',#174,.T.);
#99=FACE_BOUND('',#175,.T.);
#100=FACE_BOUND('',#176,.T.);
#101=FACE_BOUND('',#177,.T.);
#102=FACE_BOUND('',#178,.T.);
#103=FACE_BOUND('',#179,.T.);
#104=FACE_BOUND('',#180,.T.);
#105=FACE_BOUND('',#181,.T.);
#106=FACE_BOUND('',#182,.T.);
#107=FACE_BOUND('',#183,.T.);
#108=FACE_BOUND('',#184,.T.);
#109=CYLINDRICAL_SURFACE('',#289,0.65);
#110=CYLINDRICAL_SURFACE('',#291,0.65);
#111=CYLINDRICAL_SURFACE('',#299,0.68);
#112=CYLINDRICAL_SURFACE('',#303,0.68);
#113=CYLINDRICAL_SURFACE('',#306,0.45);
#114=CYLINDRICAL_SURFACE('',#307,0.35);
#115=B_SPLINE_CURVE_WITH_KNOTS('',3,(#380,#381,#382,#383),.UNSPECIFIED.,
 .F.,.F.,(4,4),(0.,1.),.UNSPECIFIED.);
#116=B_SPLINE_CURVE_WITH_KNOTS('',3,(#387,#388,#389,#390),.UNSPECIFIED.,
 .F.,.F.,(4,4),(0.,1.),.UNSPECIFIED.);
#117=B_SPLINE_CURVE_WITH_KNOTS('',3,(#415,#416,#417,#418),.UNSPECIFIED.,
 .F.,.F.,(4,4),(0.,1.),.UNSPECIFIED.);
#118=B_SPLINE_CURVE_WITH_KNOTS('',3,(#420,#421,#422,#423),.UNSPECIFIED.,
 .F.,.F.,(4,4),(0.,1.),.UNSPECIFIED.);
#119=(
BOUNDED_CURVE()
B_SPLINE_CURVE(3,(#375,#376,#377,#378),.UNSPECIFIED.,.F.,.F.)
B_SPLINE_CURVE_WITH_KNOTS((4,4),(0.,1.),.UNSPECIFIED.)
CURVE()
GEOMETRIC_REPRESENTATION_ITEM()
RATIONAL_B_SPLINE_CURVE((1.,0.995189041072878,0.995189041072878,1.))
REPRESENTATION_ITEM('')
);
#120=(
BOUNDED_CURVE()
B_SPLINE_CURVE(3,(#396,#397,#398,#399),.UNSPECIFIED.,.F.,.F.)
B_SPLINE_CURVE_WITH_KNOTS((4,4),(0.,1.),.UNSPECIFIED.)
CURVE()
GEOMETRIC_REPRESENTATION_ITEM()
RATIONAL_B_SPLINE_CURVE((1.,0.995189041072878,0.995189041072878,1.))
REPRESENTATION_ITEM('')
);
#121=(
BOUNDED_CURVE()
B_SPLINE_CURVE(3,(#403,#404,#405,#406),.UNSPECIFIED.,.F.,.F.)
B_SPLINE_CURVE_WITH_KNOTS((4,4),(0.,1.),.UNSPECIFIED.)
CURVE()
GEOMETRIC_REPRESENTATION_ITEM()
RATIONAL_B_SPLINE_CURVE((1.,0.995189041072878,0.995189041072878,1.))
REPRESENTATION_ITEM('')
);
#122=(
BOUNDED_CURVE()
B_SPLINE_CURVE(3,(#410,#411,#412,#413),.UNSPECIFIED.,.F.,.F.)
B_SPLINE_CURVE_WITH_KNOTS((4,4),(0.,1.),.UNSPECIFIED.)
CURVE()
GEOMETRIC_REPRESENTATION_ITEM()
RATIONAL_B_SPLINE_CURVE((1.,0.995189041072877,0.995189041072877,1.))
REPRESENTATION_ITEM('')
);
#123=LINE('',#372,#127);
#124=LINE('',#385,#128);
#125=LINE('',#393,#129);
#126=LINE('',#394,#130);
#127=VECTOR('',#316,1.);
#128=VECTOR('',#317,1.);
#129=VECTOR('',#320,1.);
#130=VECTOR('',#321,1.);
#131=ADVANCED_FACE('Defeature ausgef\X2\9EE8\X0\rt1_14',(#153),#147,.F.);
#132=ADVANCED_FACE('Defeature ausgef\X2\9EE8\X0\rt1_13',(#154),#148,.T.);
#133=ADVANCED_FACE('Defeature ausgef\X2\9EE8\X0\rt1_12',(#155),#149,.T.);
#134=ADVANCED_FACE('Defeature ausgef\X2\9EE8\X0\rt1_10',(#156),#109,.T.);
#135=ADVANCED_FACE('Defeature ausgef\X2\9EE8\X0\rt1_9',(#157),#110,.T.);
#136=ADVANCED_FACE('Defeature ausgef\X2\9EE8\X0\rt1_8',(#158),#150,.T.);
#137=ADVANCED_FACE('Defeature ausgef\X2\9EE8\X0\rt1_7',(#159),#151,.T.);
#138=ADVANCED_FACE('Defeature ausgef\X2\9EE8\X0\rt1_2',(#91,#92),#152,.T.);
#139=ADVANCED_FACE('Defeature ausgef\X2\9EE8\X0\rt1_0',(#93,#94),#111,.T.);
#140=ADVANCED_FACE('Defeature ausgef\X2\9EE8\X0\rt1_4',(#95,#96),#90,.T.);
#141=ADVANCED_FACE('Defeature ausgef\X2\9EE8\X0\rt1_5',(#97,#98),#112,.T.);
#142=ADVANCED_FACE('Defeature ausgef\X2\9EE8\X0\rt1_6',(#99,#100),#89,.T.);
#143=ADVANCED_FACE('Defeature ausgef\X2\9EE8\X0\rt1_11',(#101,#102),#113,
 .T.);
#144=ADVANCED_FACE('Defeature ausgef\X2\9EE8\X0\rt1_15',(#103,#104),#114,
 .F.);
#145=ADVANCED_FACE('Defeature ausgef\X2\9EE8\X0\rt1_1',(#105,#106),#87,
 .F.);
#146=ADVANCED_FACE('Defeature ausgef\X2\9EE8\X0\rt1_3',(#107,#108),#88,
 .F.);
#147=PLANE('',#285);
#148=PLANE('',#286);
#149=PLANE('',#287);
#150=PLANE('',#292);
#151=PLANE('',#293);
#152=PLANE('',#296);
#153=FACE_OUTER_BOUND('',#160,.T.);
#154=FACE_OUTER_BOUND('',#161,.T.);
#155=FACE_OUTER_BOUND('',#162,.T.);
#156=FACE_OUTER_BOUND('',#163,.T.);
#157=FACE_OUTER_BOUND('',#164,.T.);
#158=FACE_OUTER_BOUND('',#165,.T.);
#159=FACE_OUTER_BOUND('',#166,.T.);
#160=EDGE_LOOP('',(#185));
#161=EDGE_LOOP('',(#186,#187,#188,#189));
#162=EDGE_LOOP('',(#190,#191,#192,#193));
#163=EDGE_LOOP('',(#194,#195,#196));
#164=EDGE_LOOP('',(#197,#198,#199));
#165=EDGE_LOOP('',(#200,#201,#202,#203));
#166=EDGE_LOOP('',(#204,#205,#206,#207));
#167=EDGE_LOOP('',(#208));
#168=EDGE_LOOP('',(#209));
#169=EDGE_LOOP('',(#210));
#170=EDGE_LOOP('',(#211));
#171=EDGE_LOOP('',(#212));
#172=EDGE_LOOP('',(#213));
#173=EDGE_LOOP('',(#214));
#174=EDGE_LOOP('',(#215));
#175=EDGE_LOOP('',(#216));
#176=EDGE_LOOP('',(#217,#218,#219,#220,#221,#222));
#177=EDGE_LOOP('',(#223));
#178=EDGE_LOOP('',(#224));
#179=EDGE_LOOP('',(#225));
#180=EDGE_LOOP('',(#226));
#181=EDGE_LOOP('',(#227));
#182=EDGE_LOOP('',(#228));
#183=EDGE_LOOP('',(#229));
#184=EDGE_LOOP('',(#230));
#185=ORIENTED_EDGE('',*,*,#249,.T.);
#186=ORIENTED_EDGE('',*,*,#250,.F.);
#187=ORIENTED_EDGE('',*,*,#251,.F.);
#188=ORIENTED_EDGE('',*,*,#252,.F.);
#189=ORIENTED_EDGE('',*,*,#253,.F.);
#190=ORIENTED_EDGE('',*,*,#254,.F.);
#191=ORIENTED_EDGE('',*,*,#255,.F.);
#192=ORIENTED_EDGE('',*,*,#256,.F.);
#193=ORIENTED_EDGE('',*,*,#257,.F.);
#194=ORIENTED_EDGE('',*,*,#258,.F.);
#195=ORIENTED_EDGE('',*,*,#257,.T.);
#196=ORIENTED_EDGE('',*,*,#259,.T.);
#197=ORIENTED_EDGE('',*,*,#260,.F.);
#198=ORIENTED_EDGE('',*,*,#251,.T.);
#199=ORIENTED_EDGE('',*,*,#261,.T.);
#200=ORIENTED_EDGE('',*,*,#256,.T.);
#201=ORIENTED_EDGE('',*,*,#253,.T.);
#202=ORIENTED_EDGE('',*,*,#262,.F.);
#203=ORIENTED_EDGE('',*,*,#259,.F.);
#204=ORIENTED_EDGE('',*,*,#261,.F.);
#205=ORIENTED_EDGE('',*,*,#250,.T.);
#206=ORIENTED_EDGE('',*,*,#255,.T.);
#207=ORIENTED_EDGE('',*,*,#263,.F.);
#208=ORIENTED_EDGE('',*,*,#264,.T.);
#209=ORIENTED_EDGE('',*,*,#265,.T.);
#210=ORIENTED_EDGE('',*,*,#266,.T.);
#211=ORIENTED_EDGE('',*,*,#267,.T.);
#212=ORIENTED_EDGE('',*,*,#268,.F.);
#213=ORIENTED_EDGE('',*,*,#269,.T.);
#214=ORIENTED_EDGE('',*,*,#269,.F.);
#215=ORIENTED_EDGE('',*,*,#270,.T.);
#216=ORIENTED_EDGE('',*,*,#271,.F.);
#217=ORIENTED_EDGE('',*,*,#262,.T.);
#218=ORIENTED_EDGE('',*,*,#252,.T.);
#219=ORIENTED_EDGE('',*,*,#260,.T.);
#220=ORIENTED_EDGE('',*,*,#263,.T.);
#221=ORIENTED_EDGE('',*,*,#254,.T.);
#222=ORIENTED_EDGE('',*,*,#258,.T.);
#223=ORIENTED_EDGE('',*,*,#265,.F.);
#224=ORIENTED_EDGE('',*,*,#271,.T.);
#225=ORIENTED_EDGE('',*,*,#268,.T.);
#226=ORIENTED_EDGE('',*,*,#249,.F.);
#227=ORIENTED_EDGE('',*,*,#264,.F.);
#228=ORIENTED_EDGE('',*,*,#267,.F.);
#229=ORIENTED_EDGE('',*,*,#266,.F.);
#230=ORIENTED_EDGE('',*,*,#270,.F.);
#231=VERTEX_POINT('',#370);
#232=VERTEX_POINT('',#373);
#233=VERTEX_POINT('',#374);
#234=VERTEX_POINT('',#379);
#235=VERTEX_POINT('',#384);
#236=VERTEX_POINT('',#391);
#237=VERTEX_POINT('',#392);
#238=VERTEX_POINT('',#395);
#239=VERTEX_POINT('',#402);
#240=VERTEX_POINT('',#409);
#241=VERTEX_POINT('',#426);
#242=VERTEX_POINT('',#428);
#243=VERTEX_POINT('',#431);
#244=VERTEX_POINT('',#433);
#245=VERTEX_POINT('',#436);
#246=VERTEX_POINT('',#438);
#247=VERTEX_POINT('',#468);
#248=VERTEX_POINT('',#471);
#249=EDGE_CURVE(
'Defeature ausgef\X2\9EE8\X0\rt1_14+Defeature ausgef\X2\9EE8\X0\rt1_15
+Defeature ausgef\X2\9EE8\X0\rt1_15+Defeature ausgef\X2\9EE8\X0\rt1_15',
#231,#231,#272,.T.);
#250=EDGE_CURVE(
'Defeature ausgef\X2\9EE8\X0\rt1_7+Defeature ausgef\X2\9EE8\X0\rt1_13+
Defeature ausgef\X2\9EE8\X0\rt1_9+Defeature ausgef\X2\9EE8\X0\rt1_12',#232,
#233,#123,.T.);
#251=EDGE_CURVE(
'Defeature ausgef\X2\9EE8\X0\rt1_9+Defeature ausgef\X2\9EE8\X0\rt1_13+
Defeature ausgef\X2\9EE8\X0\rt1_6+Defeature ausgef\X2\9EE8\X0\rt1_7',#234,
#232,#119,.T.);
#252=EDGE_CURVE('',#235,#234,#115,.T.);
#253=EDGE_CURVE(
'Defeature ausgef\X2\9EE8\X0\rt1_8+Defeature ausgef\X2\9EE8\X0\rt1_13+
Defeature ausgef\X2\9EE8\X0\rt1_12+Defeature ausgef\X2\9EE8\X0\rt1_6',#233,
#235,#124,.T.);
#254=EDGE_CURVE(
'Defeature ausgef\X2\9EE8\X0\rt1_6+Defeature ausgef\X2\9EE8\X0\rt1_12+
Defeature ausgef\X2\9EE8\X0\rt1_7+Defeature ausgef\X2\9EE8\X0\rt1_10',#236,
#237,#116,.T.);
#255=EDGE_CURVE(
'Defeature ausgef\X2\9EE8\X0\rt1_7+Defeature ausgef\X2\9EE8\X0\rt1_12+
Defeature ausgef\X2\9EE8\X0\rt1_13+Defeature ausgef\X2\9EE8\X0\rt1_6',#233,
#236,#125,.T.);
#256=EDGE_CURVE(
'Defeature ausgef\X2\9EE8\X0\rt1_8+Defeature ausgef\X2\9EE8\X0\rt1_12+
Defeature ausgef\X2\9EE8\X0\rt1_10+Defeature ausgef\X2\9EE8\X0\rt1_13',
#238,#233,#126,.T.);
#257=EDGE_CURVE(
'Defeature ausgef\X2\9EE8\X0\rt1_10+Defeature ausgef\X2\9EE8\X0\rt1_12
+Defeature ausgef\X2\9EE8\X0\rt1_6+Defeature ausgef\X2\9EE8\X0\rt1_8',#237,
#238,#120,.T.);
#258=EDGE_CURVE(
'Defeature ausgef\X2\9EE8\X0\rt1_6+Defeature ausgef\X2\9EE8\X0\rt1_10+
Defeature ausgef\X2\9EE8\X0\rt1_12+Defeature ausgef\X2\9EE8\X0\rt1_8',#237,
#239,#273,.T.);
#259=EDGE_CURVE(
'Defeature ausgef\X2\9EE8\X0\rt1_10+Defeature ausgef\X2\9EE8\X0\rt1_8+
Defeature ausgef\X2\9EE8\X0\rt1_12+Defeature ausgef\X2\9EE8\X0\rt1_6',#238,
#239,#121,.T.);
#260=EDGE_CURVE('',#234,#240,#274,.T.);
#261=EDGE_CURVE(
'Defeature ausgef\X2\9EE8\X0\rt1_9+Defeature ausgef\X2\9EE8\X0\rt1_7+D
efeature ausgef\X2\9EE8\X0\rt1_13+Defeature ausgef\X2\9EE8\X0\rt1_6',#232,
#240,#122,.T.);
#262=EDGE_CURVE(
'Defeature ausgef\X2\9EE8\X0\rt1_6+Defeature ausgef\X2\9EE8\X0\rt1_8+D
efeature ausgef\X2\9EE8\X0\rt1_10+Defeature ausgef\X2\9EE8\X0\rt1_13',#239,
#235,#117,.T.);
#263=EDGE_CURVE('',#240,#236,#118,.T.);
#264=EDGE_CURVE('',#241,#241,#275,.T.);
#265=EDGE_CURVE('',#242,#242,#276,.T.);
#266=EDGE_CURVE('',#243,#243,#277,.T.);
#267=EDGE_CURVE(
'Defeature ausgef\X2\9EE8\X0\rt1_0+Defeature ausgef\X2\9EE8\X0\rt1_1+D
efeature ausgef\X2\9EE8\X0\rt1_1+Defeature ausgef\X2\9EE8\X0\rt1_1',#244,
#244,#278,.T.);
#268=EDGE_CURVE('',#245,#245,#279,.T.);
#269=EDGE_CURVE(
'Defeature ausgef\X2\9EE8\X0\rt1_4+Defeature ausgef\X2\9EE8\X0\rt1_5+D
efeature ausgef\X2\9EE8\X0\rt1_5+Defeature ausgef\X2\9EE8\X0\rt1_5',#246,
#246,#280,.T.);
#270=EDGE_CURVE(
'Defeature ausgef\X2\9EE8\X0\rt1_5+Defeature ausgef\X2\9EE8\X0\rt1_3+D
efeature ausgef\X2\9EE8\X0\rt1_3+Defeature ausgef\X2\9EE8\X0\rt1_3',#247,
#247,#281,.T.);
#271=EDGE_CURVE('',#248,#248,#282,.T.);
#272=CIRCLE('',#284,0.35);
#273=CIRCLE('',#288,0.65);
#274=CIRCLE('',#290,0.65);
#275=CIRCLE('',#294,0.607493485861948);
#276=CIRCLE('',#295,0.45);
#277=CIRCLE('',#297,0.68);
#278=CIRCLE('',#298,0.68);
#279=CIRCLE('',#300,0.35);
#280=CIRCLE('',#301,0.68);
#281=CIRCLE('',#302,0.68);
#282=CIRCLE('',#304,0.45);
#283=AXIS2_PLACEMENT_3D('',#368,#310,#311);
#284=AXIS2_PLACEMENT_3D('',#369,#312,#313);
#285=AXIS2_PLACEMENT_3D('',#371,#314,#315);
#286=AXIS2_PLACEMENT_3D('',#386,#318,#319);
#287=AXIS2_PLACEMENT_3D('',#400,#322,#323);
#288=AXIS2_PLACEMENT_3D('',#401,#324,#325);
#289=AXIS2_PLACEMENT_3D('',#407,#326,#327);
#290=AXIS2_PLACEMENT_3D('',#408,#328,#329);
#291=AXIS2_PLACEMENT_3D('',#414,#330,#331);
#292=AXIS2_PLACEMENT_3D('',#419,#332,#333);
#293=AXIS2_PLACEMENT_3D('',#424,#334,#335);
#294=AXIS2_PLACEMENT_3D('',#425,#336,#337);
#295=AXIS2_PLACEMENT_3D('',#427,#338,#339);
#296=AXIS2_PLACEMENT_3D('',#429,#340,#341);
#297=AXIS2_PLACEMENT_3D('',#430,#342,#343);
#298=AXIS2_PLACEMENT_3D('',#432,#344,#345);
#299=AXIS2_PLACEMENT_3D('',#434,#346,#347);
#300=AXIS2_PLACEMENT_3D('',#435,#348,#349);
#301=AXIS2_PLACEMENT_3D('',#437,#350,#351);
#302=AXIS2_PLACEMENT_3D('',#467,#352,#353);
#303=AXIS2_PLACEMENT_3D('',#469,#354,#355);
#304=AXIS2_PLACEMENT_3D('',#470,#356,#357);
#305=AXIS2_PLACEMENT_3D('',#472,#358,#359);
#306=AXIS2_PLACEMENT_3D('',#473,#360,#361);
#307=AXIS2_PLACEMENT_3D('',#474,#362,#363);
#308=AXIS2_PLACEMENT_3D('',#475,#364,#365);
#309=AXIS2_PLACEMENT_3D('',#476,#366,#367);
#310=DIRECTION('',(0.,0.,1.));
#311=DIRECTION('',(1.,0.,0.));
#312=DIRECTION('',(0.,-1.,0.));
#313=DIRECTION('',(0.,0.,1.));
#314=DIRECTION('',(0.,1.,0.));
#315=DIRECTION('',(0.,0.,1.));
#316=DIRECTION('',(-0.477158760259611,0.878817112661964,-3.05677963092551E-15));
#317=DIRECTION('',(-1.83364976059974E-15,-0.953716950748229,-0.300705799504267));
#318=DIRECTION('',(0.484489808301954,0.263056502834279,-0.834308637117065));
#319=DIRECTION('',(-0.864765299935913,0.,-0.502176240006185));
#320=DIRECTION('',(-2.60934242253749E-16,-0.953716950748229,0.300705799504267));
#321=DIRECTION('',(0.477158760259607,0.878817112661966,3.08195258028876E-15));
#322=DIRECTION('',(-0.48448980830196,0.263056502834279,0.834308637117062));
#323=DIRECTION('',(0.86476529993591,0.,0.502176240006191));
#324=DIRECTION('',(0.,-1.,0.));
#325=DIRECTION('',(0.,0.,-1.));
#326=DIRECTION('',(0.,-1.,0.));
#327=DIRECTION('',(0.,0.,-1.));
#328=DIRECTION('',(0.,-1.,0.));
#329=DIRECTION('',(0.,0.,-1.));
#330=DIRECTION('',(0.,-1.,0.));
#331=DIRECTION('',(0.,0.,-1.));
#332=DIRECTION('',(-0.484489808301953,0.263056502834281,-0.834308637117065));
#333=DIRECTION('',(-0.864765299935914,0.,0.502176240006184));
#334=DIRECTION('',(0.484489808301947,0.263056502834281,0.834308637117069));
#335=DIRECTION('',(0.864765299935918,0.,-0.502176240006178));
#336=DIRECTION('',(0.,1.,0.));
#337=DIRECTION('',(0.,0.,-1.));
#338=DIRECTION('',(0.,-1.,0.));
#339=DIRECTION('',(0.,0.,1.));
#340=DIRECTION('',(0.,1.,0.));
#341=DIRECTION('',(0.,0.,1.));
#342=DIRECTION('',(-1.34368660195977E-16,1.,0.));
#343=DIRECTION('',(1.,1.59441495953751E-16,0.));
#344=DIRECTION('',(1.34368660195977E-16,-1.,0.));
#345=DIRECTION('',(-1.,-1.59441495953751E-16,0.));
#346=DIRECTION('',(0.,-1.,0.));
#347=DIRECTION('',(0.,0.,-1.));
#348=DIRECTION('',(0.,-1.,0.));
#349=DIRECTION('',(0.,0.,-1.));
#350=DIRECTION('',(0.,-1.,0.));
#351=DIRECTION('',(0.,0.,1.));
#352=DIRECTION('',(1.34368660195977E-16,-1.,0.));
#353=DIRECTION('',(-1.,0.,0.));
#354=DIRECTION('',(0.,-1.,0.));
#355=DIRECTION('',(0.,0.,-1.));
#356=DIRECTION('',(0.,-1.,0.));
#357=DIRECTION('',(0.,0.,1.));
#358=DIRECTION('',(0.,1.,0.));
#359=DIRECTION('',(0.,-7.20549394721387E-17,1.));
#360=DIRECTION('',(0.,1.,0.));
#361=DIRECTION('',(0.,0.,1.));
#362=DIRECTION('',(0.,-1.,0.));
#363=DIRECTION('',(0.,0.,-1.));
#364=DIRECTION('',(-1.34368660195977E-16,1.,0.));
#365=DIRECTION('',(-1.,-1.34540010928823E-16,0.));
#366=DIRECTION('',(-1.34368660195977E-16,1.,0.));
#367=DIRECTION('',(-1.,-1.22869547637717E-16,0.));
#368=CARTESIAN_POINT('',(0.,0.,0.));
#369=CARTESIAN_POINT('',(0.,-24.8388582011636,0.));
#370=CARTESIAN_POINT('',(0.,-24.8388582011636,0.35));
#371=CARTESIAN_POINT('',(0.,-24.8388582011636,0.));
#372=CARTESIAN_POINT('',(-0.800957121336933,9.87517950703952,-5.20417042793042E-15));
#373=CARTESIAN_POINT('',(0.649999999999997,7.20284892407827,4.17417836406919E-15));
#374=CARTESIAN_POINT('',(-1.07943211383188E-15,8.4,-7.30702204955258E-17));
#375=CARTESIAN_POINT('',(0.631304960262181,6.74641016151378,-0.154770950595912));
#376=CARTESIAN_POINT('',(0.643738194799764,6.88435747734785,-0.104056248609152));
#377=CARTESIAN_POINT('',(0.649999999999997,7.03723923941402,-0.0522165330012632));
#378=CARTESIAN_POINT('',(0.649999999999997,7.20284892407827,4.17417836406919E-15));
#379=CARTESIAN_POINT('',(0.631304960262181,6.74641016151378,-0.154770950595912));
#380=CARTESIAN_POINT('',(-3.57342849375971E-15,6.6023164379389,-0.566807449905508));
#381=CARTESIAN_POINT('',(0.247878855472073,6.44106015780635,-0.473706093162463));
#382=CARTESIAN_POINT('',(0.451621055001932,6.51700373641361,-0.331446423152445));
#383=CARTESIAN_POINT('',(0.631304960262181,6.74641016151378,-0.154770950595912));
#384=CARTESIAN_POINT('',(-3.70118723046231E-15,6.6023164379389,-0.566807449905508));
#385=CARTESIAN_POINT('',(-2.05521406906884E-15,8.9655849902082,0.178328262420773));
#386=CARTESIAN_POINT('',(1.4351288648918,5.27286865021613,-0.152589728157987));
#387=CARTESIAN_POINT('',(-3.27824402740627E-15,6.6023164379389,0.56680744990551));
#388=CARTESIAN_POINT('',(-0.2478788554724,6.44106015780614,0.473706093162339));
#389=CARTESIAN_POINT('',(-0.451621055011515,6.51700373642583,0.331446423143029));
#390=CARTESIAN_POINT('',(-0.631304960262188,6.74641016151378,0.154770950595907));
#391=CARTESIAN_POINT('',(-3.7859997886379E-15,6.6023164379389,0.566807449905509));
#392=CARTESIAN_POINT('',(-0.631304960262188,6.74641016151378,0.154770950595907));
#393=CARTESIAN_POINT('',(-3.13941624155434E-15,8.9655849902082,-0.178328262420773));
#394=CARTESIAN_POINT('',(0.800957121336915,9.87517950703952,5.20417042793042E-15));
#395=CARTESIAN_POINT('',(-0.650000000000004,7.20284892407825,-4.16751341490571E-15));
#396=CARTESIAN_POINT('',(-0.631304960262188,6.74641016151378,0.154770950595907));
#397=CARTESIAN_POINT('',(-0.643738194799771,6.88435747734785,0.104056248609149));
#398=CARTESIAN_POINT('',(-0.650000000000004,7.03723923941401,0.0522165330012618));
#399=CARTESIAN_POINT('',(-0.650000000000004,7.20284892407825,-4.16751341490571E-15));
#400=CARTESIAN_POINT('',(-1.43512886489181,5.27286865021613,0.152589728157977));
#401=CARTESIAN_POINT('',(-3.13941624155434E-15,6.74641016151378,-3.85185988877447E-31));
#402=CARTESIAN_POINT('',(-0.631304960262186,6.74641016151378,-0.154770950595917));
#403=CARTESIAN_POINT('',(-0.650000000000004,7.20284892407825,-4.16751341490571E-15));
#404=CARTESIAN_POINT('',(-0.650000000000003,7.03723923941401,-0.0522165330012705));
#405=CARTESIAN_POINT('',(-0.643738194799769,6.88435747734784,-0.104056248609158));
#406=CARTESIAN_POINT('',(-0.631304960262186,6.74641016151378,-0.154770950595917));
#407=CARTESIAN_POINT('',(-3.13941624155434E-15,-6.82362112999272,-3.85185988877447E-31));
#408=CARTESIAN_POINT('',(-3.13941624155434E-15,6.74641016151378,-3.85185988877447E-31));
#409=CARTESIAN_POINT('',(0.631304960262179,6.74641016151378,0.154770950595921));
#410=CARTESIAN_POINT('',(0.649999999999997,7.20284892407827,4.17417836406919E-15));
#411=CARTESIAN_POINT('',(0.649999999999996,7.03723923941402,0.0522165330012719));
#412=CARTESIAN_POINT('',(0.643738194799762,6.88435747734785,0.104056248609161));
#413=CARTESIAN_POINT('',(0.631304960262179,6.74641016151378,0.154770950595921));
#414=CARTESIAN_POINT('',(-3.13941624155434E-15,-6.82362112999272,-3.85185988877447E-31));
#415=CARTESIAN_POINT('',(-0.631304960262186,6.74641016151378,-0.154770950595917));
#416=CARTESIAN_POINT('',(-0.451526950044342,6.51688359052784,-0.331538952517889));
#417=CARTESIAN_POINT('',(-0.247563111357552,6.44126556347231,-0.473824684178999));
#418=CARTESIAN_POINT('',(-3.57342849375971E-15,6.6023164379389,-0.566807449905508));
#419=CARTESIAN_POINT('',(1.89497734562908,9.28117499074037,-0.82259534294488));
#420=CARTESIAN_POINT('',(0.631304960262179,6.74641016151378,0.154770950595921));
#421=CARTESIAN_POINT('',(0.451526950046716,6.51688359053089,0.331538952515554));
#422=CARTESIAN_POINT('',(0.247563111369289,6.44126556346466,0.47382468417458));
#423=CARTESIAN_POINT('',(-3.13941624155434E-15,6.6023164379389,0.56680744990551));
#424=CARTESIAN_POINT('',(-1.89497734562909,9.28117499074037,0.822595342944867));
#425=CARTESIAN_POINT('',(3.46944695195361E-15,0.,0.));
#426=CARTESIAN_POINT('',(3.46944695195361E-15,0.,-0.607493485861948));
#427=CARTESIAN_POINT('',(-3.13941624155434E-15,0.,-3.85185988877447E-31));
#428=CARTESIAN_POINT('',(-3.13941624155434E-15,0.,0.45));
#429=CARTESIAN_POINT('',(0.,0.,-0.685));
#430=CARTESIAN_POINT('',(3.6701942483248E-15,-0.763933240366718,0.));
#431=CARTESIAN_POINT('',(0.680000000000004,-0.763933240366718,0.));
#432=CARTESIAN_POINT('',(3.50275171289974E-15,-0.283729626425916,0.));
#433=CARTESIAN_POINT('',(-0.679999999999997,-0.283729626425916,0.));
#434=CARTESIAN_POINT('',(0.,-25.,0.));
#435=CARTESIAN_POINT('',(0.,-25.,0.));
#436=CARTESIAN_POINT('',(0.,-25.,-0.35));
#437=CARTESIAN_POINT('',(0.,-24.5118946101115,0.));
#438=CARTESIAN_POINT('',(0.,-24.5118946101115,0.68));
#439=CARTESIAN_POINT('',(0.,-25.,-0.35));
#440=CARTESIAN_POINT('',(0.700000000000001,-25.,-0.35));
#441=CARTESIAN_POINT('',(0.700000000000001,-25.,0.35));
#442=CARTESIAN_POINT('',(0.,-25.,0.35));
#443=CARTESIAN_POINT('',(-0.700000000000001,-25.,0.35));
#444=CARTESIAN_POINT('',(-0.700000000000001,-25.,-0.35));
#445=CARTESIAN_POINT('',(0.,-25.,-0.35));
#446=CARTESIAN_POINT('',(0.,-24.8973939579936,-0.535203180929575));
#447=CARTESIAN_POINT('',(1.07040636185915,-24.8973939579936,-0.535203180929575));
#448=CARTESIAN_POINT('',(1.07040636185915,-24.8973939579936,0.535203180929575));
#449=CARTESIAN_POINT('',(0.,-24.8973939579936,0.535203180929575));
#450=CARTESIAN_POINT('',(-1.07040636185915,-24.8973939579936,0.535203180929575));
#451=CARTESIAN_POINT('',(-1.07040636185915,-24.8973939579936,-0.535203180929575));
#452=CARTESIAN_POINT('',(0.,-24.8973939579936,-0.535203180929575));
#453=CARTESIAN_POINT('',(0.,-24.7219926961246,-0.653789079827367));
#454=CARTESIAN_POINT('',(1.30757815965473,-24.7219926961246,-0.653789079827367));
#455=CARTESIAN_POINT('',(1.30757815965473,-24.7219926961246,0.653789079827367));
#456=CARTESIAN_POINT('',(0.,-24.7219926961246,0.653789079827367));
#457=CARTESIAN_POINT('',(-1.30757815965473,-24.7219926961246,0.653789079827367));
#458=CARTESIAN_POINT('',(-1.30757815965473,-24.7219926961246,-0.653789079827367));
#459=CARTESIAN_POINT('',(0.,-24.7219926961246,-0.653789079827367));
#460=CARTESIAN_POINT('',(0.,-24.5118946101115,-0.68));
#461=CARTESIAN_POINT('',(1.36,-24.5118946101115,-0.68));
#462=CARTESIAN_POINT('',(1.36,-24.5118946101115,0.68));
#463=CARTESIAN_POINT('',(0.,-24.5118946101115,0.68));
#464=CARTESIAN_POINT('',(-1.36,-24.5118946101115,0.68));
#465=CARTESIAN_POINT('',(-1.36,-24.5118946101115,-0.68));
#466=CARTESIAN_POINT('',(0.,-24.5118946101115,-0.68));
#467=CARTESIAN_POINT('',(3.70238052457663E-15,-1.0034703184688,0.));
#468=CARTESIAN_POINT('',(-0.679999999999996,-1.0034703184688,0.));
#469=CARTESIAN_POINT('',(0.,-25.,0.));
#470=CARTESIAN_POINT('',(-3.13941624155434E-15,6.4,-3.85185988877447E-31));
#471=CARTESIAN_POINT('',(-3.13941624155434E-15,6.4,0.45));
#472=CARTESIAN_POINT('',(-3.13941624155434E-15,6.4,-3.85185988877447E-31));
#473=CARTESIAN_POINT('',(-3.13941624155434E-15,0.,-3.85185988877447E-31));
#474=CARTESIAN_POINT('',(0.,-24.5,0.));
#475=CARTESIAN_POINT('',(3.46944695195361E-15,-0.0358685485707494,0.));
#476=CARTESIAN_POINT('',(3.68628738645072E-15,-0.88370177941776,0.));
#477=(
GEOMETRIC_REPRESENTATION_CONTEXT(3)
GLOBAL_UNCERTAINTY_ASSIGNED_CONTEXT((#478))
GLOBAL_UNIT_ASSIGNED_CONTEXT((#484,#480,#479))
REPRESENTATION_CONTEXT('RC100W130S100L3340','TOP_LEVEL_ASSEMBLY_PART')
);
#478=UNCERTAINTY_MEASURE_WITH_UNIT(LENGTH_MEASURE(0.0508),#484,
'DISTANCE_ACCURACY_VALUE','Maximum Tolerance applied to model');
#479=(
NAMED_UNIT(*)
SI_UNIT($,.STERADIAN.)
SOLID_ANGLE_UNIT()
);
#480=(
CONVERSION_BASED_UNIT('DEGREE',#482)
NAMED_UNIT(#481)
PLANE_ANGLE_UNIT()
);
#481=DIMENSIONAL_EXPONENTS(0.,0.,0.,0.,0.,0.,0.);
#482=PLANE_ANGLE_MEASURE_WITH_UNIT(PLANE_ANGLE_MEASURE(0.0174532925),#483);
#483=(
NAMED_UNIT(*)
PLANE_ANGLE_UNIT()
SI_UNIT($,.RADIAN.)
);
#484=(
LENGTH_UNIT()
NAMED_UNIT(*)
SI_UNIT(.MILLI.,.METRE.)
);
ENDSEC;
END-ISO-10303-21;
